ISO-10303-21;
HEADER;
/* Generated by software containing ST-Developer
 * from STEP Tools, Inc. (www.steptools.com) 
 */
/* OPTION: using custom schema-name function */

FILE_DESCRIPTION(
/* description */ (''),
/* implementation_level */ '2;1');

FILE_NAME(
/* name */ 'EX-FT12.stp',
/* time_stamp */ '2023-04-10T10:37:48+08:00',
/* author */ (''),
/* organization */ (''),
/* preprocessor_version */ 'ST-DEVELOPER v16.7',
/* originating_system */ 'SIEMENS PLM Software NX 12.0',
/* authorisation */ '');

FILE_SCHEMA (('AUTOMOTIVE_DESIGN { 1 0 10303 214 3 1 1 1 }'));
ENDSEC;

DATA;
#10=SHAPE_REPRESENTATION_RELATIONSHIP('None',
'relationship between EX-FT12-None and EX-FT12-None',#22,#11);
#11=ADVANCED_BREP_SHAPE_REPRESENTATION('EX-FT12-None',(#32),#509);
#12=SHAPE_DEFINITION_REPRESENTATION(#13,#22);
#13=PRODUCT_DEFINITION_SHAPE('','',#14);
#14=PRODUCT_DEFINITION(' ','',#16,#15);
#15=PRODUCT_DEFINITION_CONTEXT('part definition',#21,'design');
#16=PRODUCT_DEFINITION_FORMATION_WITH_SPECIFIED_SOURCE(' ',' ',#18,
 .NOT_KNOWN.);
#17=PRODUCT_RELATED_PRODUCT_CATEGORY('part','',(#18));
#18=PRODUCT('EX-FT12','EX-FT12',' ',(#19));
#19=PRODUCT_CONTEXT(' ',#21,'mechanical');
#20=APPLICATION_PROTOCOL_DEFINITION('international standard',
'automotive_design',2010,#21);
#21=APPLICATION_CONTEXT(
'core data for automotive mechanical design processes');
#22=SHAPE_REPRESENTATION('EX-FT12-None',(#314),#509);
#23=PRESENTATION_LAYER_ASSIGNMENT('1','Layer 1',(#32));
#24=STYLED_ITEM('',(#25),#32);
#25=PRESENTATION_STYLE_ASSIGNMENT((#26));
#26=SURFACE_STYLE_USAGE(.BOTH.,#27);
#27=SURFACE_SIDE_STYLE('',(#28));
#28=SURFACE_STYLE_FILL_AREA(#29);
#29=FILL_AREA_STYLE('',(#30));
#30=FILL_AREA_STYLE_COLOUR('',#31);
#31=COLOUR_RGB('Orange',1.,0.6,0.);
#32=MANIFOLD_SOLID_BREP('',#33);
#33=CLOSED_SHELL('',(#98,#99,#100,#101,#102,#103,#104,#105,#106,#107,#108,
#109,#110,#111,#112,#113,#114,#115));
#34=PLANE('',#318);
#35=PLANE('',#319);
#36=PLANE('',#320);
#37=PLANE('',#322);
#38=PLANE('',#324);
#39=PLANE('',#328);
#40=PLANE('',#331);
#41=PLANE('',#334);
#42=PLANE('',#335);
#43=PLANE('',#338);
#44=PLANE('',#341);
#45=PLANE('',#344);
#46=FACE_OUTER_BOUND('',#146,.T.);
#47=FACE_OUTER_BOUND('',#147,.T.);
#48=FACE_OUTER_BOUND('',#148,.T.);
#49=FACE_OUTER_BOUND('',#159,.T.);
#50=FACE_OUTER_BOUND('',#160,.T.);
#51=FACE_OUTER_BOUND('',#161,.T.);
#52=FACE_OUTER_BOUND('',#170,.T.);
#53=FACE_OUTER_BOUND('',#173,.T.);
#54=LINE('',#435,#76);
#55=LINE('',#438,#77);
#56=LINE('',#440,#78);
#57=LINE('',#442,#79);
#58=LINE('',#444,#80);
#59=LINE('',#446,#81);
#60=LINE('',#448,#82);
#61=LINE('',#450,#83);
#62=LINE('',#452,#84);
#63=LINE('',#454,#85);
#64=LINE('',#456,#86);
#65=LINE('',#458,#87);
#66=LINE('',#460,#88);
#67=LINE('',#462,#89);
#68=LINE('',#466,#90);
#69=LINE('',#467,#91);
#70=LINE('',#476,#92);
#71=LINE('',#480,#93);
#72=LINE('',#485,#94);
#73=LINE('',#487,#95);
#74=LINE('',#491,#96);
#75=LINE('',#493,#97);
#76=VECTOR('',#353,1.);
#77=VECTOR('',#354,1.);
#78=VECTOR('',#355,1.);
#79=VECTOR('',#356,1.);
#80=VECTOR('',#357,1.);
#81=VECTOR('',#358,1.);
#82=VECTOR('',#359,1.);
#83=VECTOR('',#360,1.);
#84=VECTOR('',#363,1.);
#85=VECTOR('',#364,1.);
#86=VECTOR('',#365,1.);
#87=VECTOR('',#368,1.);
#88=VECTOR('',#369,1.);
#89=VECTOR('',#370,1.);
#90=VECTOR('',#375,1.);
#91=VECTOR('',#376,1.);
#92=VECTOR('',#387,1.);
#93=VECTOR('',#390,1.);
#94=VECTOR('',#397,1.);
#95=VECTOR('',#398,1.);
#96=VECTOR('',#403,1.);
#97=VECTOR('',#406,1.);
#98=ADVANCED_FACE('',(#122,#123),#116,.F.);
#99=ADVANCED_FACE('',(#46),#34,.T.);
#100=ADVANCED_FACE('',(#47),#35,.T.);
#101=ADVANCED_FACE('',(#48),#36,.T.);
#102=ADVANCED_FACE('',(#124,#125),#37,.T.);
#103=ADVANCED_FACE('',(#126,#127,#128),#38,.F.);
#104=ADVANCED_FACE('',(#129,#130,#131),#39,.T.);
#105=ADVANCED_FACE('',(#132,#133),#117,.F.);
#106=ADVANCED_FACE('',(#49),#40,.T.);
#107=ADVANCED_FACE('',(#50),#118,.F.);
#108=ADVANCED_FACE('',(#51),#41,.T.);
#109=ADVANCED_FACE('',(#134,#135),#42,.F.);
#110=ADVANCED_FACE('',(#136,#137),#119,.F.);
#111=ADVANCED_FACE('',(#138,#139),#43,.T.);
#112=ADVANCED_FACE('',(#140,#141),#120,.F.);
#113=ADVANCED_FACE('',(#52),#44,.F.);
#114=ADVANCED_FACE('',(#142,#143),#121,.T.);
#115=ADVANCED_FACE('',(#53),#45,.T.);
#116=CYLINDRICAL_SURFACE('',#317,1.1);
#117=CYLINDRICAL_SURFACE('',#330,1.1);
#118=CYLINDRICAL_SURFACE('',#333,1.80000000000001);
#119=CYLINDRICAL_SURFACE('',#337,1.8);
#120=CYLINDRICAL_SURFACE('',#340,0.5);
#121=CYLINDRICAL_SURFACE('',#343,1.1);
#122=FACE_BOUND('',#144,.T.);
#123=FACE_BOUND('',#145,.T.);
#124=FACE_BOUND('',#149,.T.);
#125=FACE_BOUND('',#150,.T.);
#126=FACE_BOUND('',#151,.T.);
#127=FACE_BOUND('',#152,.T.);
#128=FACE_BOUND('',#153,.T.);
#129=FACE_BOUND('',#154,.T.);
#130=FACE_BOUND('',#155,.T.);
#131=FACE_BOUND('',#156,.T.);
#132=FACE_BOUND('',#157,.T.);
#133=FACE_BOUND('',#158,.T.);
#134=FACE_BOUND('',#162,.T.);
#135=FACE_BOUND('',#163,.T.);
#136=FACE_BOUND('',#164,.T.);
#137=FACE_BOUND('',#165,.T.);
#138=FACE_BOUND('',#166,.T.);
#139=FACE_BOUND('',#167,.T.);
#140=FACE_BOUND('',#168,.T.);
#141=FACE_BOUND('',#169,.T.);
#142=FACE_BOUND('',#171,.T.);
#143=FACE_BOUND('',#172,.T.);
#144=EDGE_LOOP('',(#174));
#145=EDGE_LOOP('',(#175));
#146=EDGE_LOOP('',(#176,#177,#178,#179,#180,#181,#182,#183));
#147=EDGE_LOOP('',(#184,#185,#186,#187));
#148=EDGE_LOOP('',(#188,#189,#190,#191));
#149=EDGE_LOOP('',(#192));
#150=EDGE_LOOP('',(#193,#194,#195,#196));
#151=EDGE_LOOP('',(#197));
#152=EDGE_LOOP('',(#198));
#153=EDGE_LOOP('',(#199,#200,#201,#202));
#154=EDGE_LOOP('',(#203));
#155=EDGE_LOOP('',(#204));
#156=EDGE_LOOP('',(#205,#206,#207,#208,#209,#210,#211,#212));
#157=EDGE_LOOP('',(#213));
#158=EDGE_LOOP('',(#214));
#159=EDGE_LOOP('',(#215,#216,#217,#218));
#160=EDGE_LOOP('',(#219,#220,#221,#222));
#161=EDGE_LOOP('',(#223,#224,#225,#226));
#162=EDGE_LOOP('',(#227));
#163=EDGE_LOOP('',(#228,#229,#230,#231));
#164=EDGE_LOOP('',(#232));
#165=EDGE_LOOP('',(#233));
#166=EDGE_LOOP('',(#234));
#167=EDGE_LOOP('',(#235));
#168=EDGE_LOOP('',(#236));
#169=EDGE_LOOP('',(#237));
#170=EDGE_LOOP('',(#238));
#171=EDGE_LOOP('',(#239));
#172=EDGE_LOOP('',(#240));
#173=EDGE_LOOP('',(#241));
#174=ORIENTED_EDGE('',*,*,#268,.T.);
#175=ORIENTED_EDGE('',*,*,#269,.T.);
#176=ORIENTED_EDGE('',*,*,#270,.T.);
#177=ORIENTED_EDGE('',*,*,#271,.T.);
#178=ORIENTED_EDGE('',*,*,#272,.F.);
#179=ORIENTED_EDGE('',*,*,#273,.F.);
#180=ORIENTED_EDGE('',*,*,#274,.T.);
#181=ORIENTED_EDGE('',*,*,#275,.T.);
#182=ORIENTED_EDGE('',*,*,#276,.F.);
#183=ORIENTED_EDGE('',*,*,#277,.F.);
#184=ORIENTED_EDGE('',*,*,#278,.F.);
#185=ORIENTED_EDGE('',*,*,#279,.F.);
#186=ORIENTED_EDGE('',*,*,#280,.T.);
#187=ORIENTED_EDGE('',*,*,#273,.T.);
#188=ORIENTED_EDGE('',*,*,#281,.F.);
#189=ORIENTED_EDGE('',*,*,#275,.F.);
#190=ORIENTED_EDGE('',*,*,#282,.T.);
#191=ORIENTED_EDGE('',*,*,#283,.T.);
#192=ORIENTED_EDGE('',*,*,#284,.F.);
#193=ORIENTED_EDGE('',*,*,#285,.F.);
#194=ORIENTED_EDGE('',*,*,#283,.F.);
#195=ORIENTED_EDGE('',*,*,#286,.T.);
#196=ORIENTED_EDGE('',*,*,#279,.T.);
#197=ORIENTED_EDGE('',*,*,#287,.F.);
#198=ORIENTED_EDGE('',*,*,#268,.F.);
#199=ORIENTED_EDGE('',*,*,#280,.F.);
#200=ORIENTED_EDGE('',*,*,#286,.F.);
#201=ORIENTED_EDGE('',*,*,#282,.F.);
#202=ORIENTED_EDGE('',*,*,#274,.F.);
#203=ORIENTED_EDGE('',*,*,#288,.T.);
#204=ORIENTED_EDGE('',*,*,#289,.F.);
#205=ORIENTED_EDGE('',*,*,#272,.T.);
#206=ORIENTED_EDGE('',*,*,#290,.T.);
#207=ORIENTED_EDGE('',*,*,#291,.T.);
#208=ORIENTED_EDGE('',*,*,#292,.T.);
#209=ORIENTED_EDGE('',*,*,#276,.T.);
#210=ORIENTED_EDGE('',*,*,#281,.T.);
#211=ORIENTED_EDGE('',*,*,#285,.T.);
#212=ORIENTED_EDGE('',*,*,#278,.T.);
#213=ORIENTED_EDGE('',*,*,#293,.F.);
#214=ORIENTED_EDGE('',*,*,#287,.T.);
#215=ORIENTED_EDGE('',*,*,#290,.F.);
#216=ORIENTED_EDGE('',*,*,#271,.F.);
#217=ORIENTED_EDGE('',*,*,#294,.F.);
#218=ORIENTED_EDGE('',*,*,#295,.F.);
#219=ORIENTED_EDGE('',*,*,#291,.F.);
#220=ORIENTED_EDGE('',*,*,#295,.T.);
#221=ORIENTED_EDGE('',*,*,#296,.F.);
#222=ORIENTED_EDGE('',*,*,#297,.F.);
#223=ORIENTED_EDGE('',*,*,#292,.F.);
#224=ORIENTED_EDGE('',*,*,#297,.T.);
#225=ORIENTED_EDGE('',*,*,#298,.F.);
#226=ORIENTED_EDGE('',*,*,#277,.T.);
#227=ORIENTED_EDGE('',*,*,#293,.T.);
#228=ORIENTED_EDGE('',*,*,#294,.T.);
#229=ORIENTED_EDGE('',*,*,#270,.F.);
#230=ORIENTED_EDGE('',*,*,#298,.T.);
#231=ORIENTED_EDGE('',*,*,#296,.T.);
#232=ORIENTED_EDGE('',*,*,#299,.T.);
#233=ORIENTED_EDGE('',*,*,#289,.T.);
#234=ORIENTED_EDGE('',*,*,#269,.F.);
#235=ORIENTED_EDGE('',*,*,#299,.F.);
#236=ORIENTED_EDGE('',*,*,#300,.F.);
#237=ORIENTED_EDGE('',*,*,#288,.F.);
#238=ORIENTED_EDGE('',*,*,#300,.T.);
#239=ORIENTED_EDGE('',*,*,#301,.F.);
#240=ORIENTED_EDGE('',*,*,#284,.T.);
#241=ORIENTED_EDGE('',*,*,#301,.T.);
#242=VERTEX_POINT('',#431);
#243=VERTEX_POINT('',#433);
#244=VERTEX_POINT('',#436);
#245=VERTEX_POINT('',#437);
#246=VERTEX_POINT('',#439);
#247=VERTEX_POINT('',#441);
#248=VERTEX_POINT('',#443);
#249=VERTEX_POINT('',#445);
#250=VERTEX_POINT('',#447);
#251=VERTEX_POINT('',#449);
#252=VERTEX_POINT('',#453);
#253=VERTEX_POINT('',#455);
#254=VERTEX_POINT('',#459);
#255=VERTEX_POINT('',#461);
#256=VERTEX_POINT('',#465);
#257=VERTEX_POINT('',#470);
#258=VERTEX_POINT('',#473);
#259=VERTEX_POINT('',#475);
#260=VERTEX_POINT('',#477);
#261=VERTEX_POINT('',#479);
#262=VERTEX_POINT('',#483);
#263=VERTEX_POINT('',#486);
#264=VERTEX_POINT('',#490);
#265=VERTEX_POINT('',#497);
#266=VERTEX_POINT('',#501);
#267=VERTEX_POINT('',#505);
#268=EDGE_CURVE('',#242,#242,#302,.T.);
#269=EDGE_CURVE('',#243,#243,#303,.T.);
#270=EDGE_CURVE('',#244,#245,#54,.T.);
#271=EDGE_CURVE('',#245,#246,#55,.T.);
#272=EDGE_CURVE('',#247,#246,#56,.T.);
#273=EDGE_CURVE('',#248,#247,#57,.T.);
#274=EDGE_CURVE('',#248,#249,#58,.T.);
#275=EDGE_CURVE('',#249,#250,#59,.T.);
#276=EDGE_CURVE('',#251,#250,#60,.T.);
#277=EDGE_CURVE('',#244,#251,#61,.T.);
#278=EDGE_CURVE('',#252,#247,#62,.T.);
#279=EDGE_CURVE('',#253,#252,#63,.T.);
#280=EDGE_CURVE('',#253,#248,#64,.T.);
#281=EDGE_CURVE('',#250,#254,#65,.T.);
#282=EDGE_CURVE('',#249,#255,#66,.T.);
#283=EDGE_CURVE('',#255,#254,#67,.T.);
#284=EDGE_CURVE('',#256,#256,#304,.T.);
#285=EDGE_CURVE('',#254,#252,#68,.T.);
#286=EDGE_CURVE('',#255,#253,#69,.T.);
#287=EDGE_CURVE('',#257,#257,#305,.T.);
#288=EDGE_CURVE('',#258,#258,#306,.T.);
#289=EDGE_CURVE('',#259,#259,#307,.T.);
#290=EDGE_CURVE('',#246,#260,#70,.T.);
#291=EDGE_CURVE('',#260,#261,#308,.T.);
#292=EDGE_CURVE('',#261,#251,#71,.T.);
#293=EDGE_CURVE('',#262,#262,#309,.T.);
#294=EDGE_CURVE('',#263,#245,#72,.T.);
#295=EDGE_CURVE('',#260,#263,#73,.T.);
#296=EDGE_CURVE('',#264,#263,#310,.T.);
#297=EDGE_CURVE('',#261,#264,#74,.T.);
#298=EDGE_CURVE('',#244,#264,#75,.T.);
#299=EDGE_CURVE('',#265,#265,#311,.T.);
#300=EDGE_CURVE('',#266,#266,#312,.T.);
#301=EDGE_CURVE('',#267,#267,#313,.T.);
#302=CIRCLE('',#315,1.1);
#303=CIRCLE('',#316,1.1);
#304=CIRCLE('',#321,1.1);
#305=CIRCLE('',#323,1.1);
#306=CIRCLE('',#325,0.5);
#307=CIRCLE('',#326,1.8);
#308=CIRCLE('',#327,1.80000000000001);
#309=CIRCLE('',#329,1.1);
#310=CIRCLE('',#332,1.80000000000001);
#311=CIRCLE('',#336,1.8);
#312=CIRCLE('',#339,0.5);
#313=CIRCLE('',#342,1.1);
#314=AXIS2_PLACEMENT_3D('',#429,#345,#346);
#315=AXIS2_PLACEMENT_3D('',#430,#347,#348);
#316=AXIS2_PLACEMENT_3D('',#432,#349,#350);
#317=AXIS2_PLACEMENT_3D('',#434,#351,#352);
#318=AXIS2_PLACEMENT_3D('',#451,#361,#362);
#319=AXIS2_PLACEMENT_3D('',#457,#366,#367);
#320=AXIS2_PLACEMENT_3D('',#463,#371,#372);
#321=AXIS2_PLACEMENT_3D('',#464,#373,#374);
#322=AXIS2_PLACEMENT_3D('',#468,#377,#378);
#323=AXIS2_PLACEMENT_3D('',#469,#379,#380);
#324=AXIS2_PLACEMENT_3D('',#471,#381,#382);
#325=AXIS2_PLACEMENT_3D('',#472,#383,#384);
#326=AXIS2_PLACEMENT_3D('',#474,#385,#386);
#327=AXIS2_PLACEMENT_3D('',#478,#388,#389);
#328=AXIS2_PLACEMENT_3D('',#481,#391,#392);
#329=AXIS2_PLACEMENT_3D('',#482,#393,#394);
#330=AXIS2_PLACEMENT_3D('',#484,#395,#396);
#331=AXIS2_PLACEMENT_3D('',#488,#399,#400);
#332=AXIS2_PLACEMENT_3D('',#489,#401,#402);
#333=AXIS2_PLACEMENT_3D('',#492,#404,#405);
#334=AXIS2_PLACEMENT_3D('',#494,#407,#408);
#335=AXIS2_PLACEMENT_3D('',#495,#409,#410);
#336=AXIS2_PLACEMENT_3D('',#496,#411,#412);
#337=AXIS2_PLACEMENT_3D('',#498,#413,#414);
#338=AXIS2_PLACEMENT_3D('',#499,#415,#416);
#339=AXIS2_PLACEMENT_3D('',#500,#417,#418);
#340=AXIS2_PLACEMENT_3D('',#502,#419,#420);
#341=AXIS2_PLACEMENT_3D('',#503,#421,#422);
#342=AXIS2_PLACEMENT_3D('',#504,#423,#424);
#343=AXIS2_PLACEMENT_3D('',#506,#425,#426);
#344=AXIS2_PLACEMENT_3D('',#507,#427,#428);
#345=DIRECTION('',(0.,0.,1.));
#346=DIRECTION('',(1.,0.,0.));
#347=DIRECTION('',(1.,0.,0.));
#348=DIRECTION('',(0.,-1.,0.));
#349=DIRECTION('',(-1.,0.,0.));
#350=DIRECTION('',(0.,0.,1.));
#351=DIRECTION('',(-1.,0.,0.));
#352=DIRECTION('',(0.,0.,1.));
#353=DIRECTION('',(0.,-1.92747052886312E-15,1.));
#354=DIRECTION('',(-1.,0.,0.));
#355=DIRECTION('',(0.,0.,-1.));
#356=DIRECTION('',(-1.,0.,0.));
#357=DIRECTION('',(0.,0.,-1.));
#358=DIRECTION('',(-1.,0.,0.));
#359=DIRECTION('',(0.,0.,-1.));
#360=DIRECTION('',(-1.,0.,0.));
#361=DIRECTION('',(0.,1.,0.));
#362=DIRECTION('',(0.,0.,1.));
#363=DIRECTION('',(0.,1.,0.));
#364=DIRECTION('',(-1.,0.,0.));
#365=DIRECTION('',(0.,1.,0.));
#366=DIRECTION('',(0.,0.,1.));
#367=DIRECTION('',(1.,0.,0.));
#368=DIRECTION('',(0.,-1.,0.));
#369=DIRECTION('',(0.,-1.,0.));
#370=DIRECTION('',(-1.,0.,0.));
#371=DIRECTION('',(0.,0.,-1.));
#372=DIRECTION('',(-1.,0.,0.));
#373=DIRECTION('',(0.,-1.,0.));
#374=DIRECTION('',(1.,0.,0.));
#375=DIRECTION('',(0.,0.,1.));
#376=DIRECTION('',(0.,0.,1.));
#377=DIRECTION('',(0.,-1.,0.));
#378=DIRECTION('',(0.,0.,-1.));
#379=DIRECTION('',(1.,0.,0.));
#380=DIRECTION('',(0.,-1.,0.));
#381=DIRECTION('',(-1.,0.,0.));
#382=DIRECTION('',(0.,0.,1.));
#383=DIRECTION('',(1.,0.,0.));
#384=DIRECTION('',(0.,-0.999999999999999,0.));
#385=DIRECTION('',(-1.,0.,0.));
#386=DIRECTION('',(0.,-1.,-2.4093381610789E-16));
#387=DIRECTION('',(0.,-1.,0.));
#388=DIRECTION('',(1.,0.,0.));
#389=DIRECTION('',(0.,-1.,2.40933816107889E-16));
#390=DIRECTION('',(0.,1.,0.));
#391=DIRECTION('',(-1.,0.,0.));
#392=DIRECTION('',(0.,0.,1.));
#393=DIRECTION('',(1.,0.,0.));
#394=DIRECTION('',(0.,0.,-1.));
#395=DIRECTION('',(-1.,0.,0.));
#396=DIRECTION('',(0.,0.,1.));
#397=DIRECTION('',(0.,1.,0.));
#398=DIRECTION('',(1.,0.,0.));
#399=DIRECTION('',(0.,0.,-1.));
#400=DIRECTION('',(-1.,0.,0.));
#401=DIRECTION('',(-1.,0.,0.));
#402=DIRECTION('',(0.,-1.,2.40933816107889E-16));
#403=DIRECTION('',(1.,0.,0.));
#404=DIRECTION('',(-1.,0.,0.));
#405=DIRECTION('',(0.,0.,1.));
#406=DIRECTION('',(0.,-1.,0.));
#407=DIRECTION('',(0.,0.,1.));
#408=DIRECTION('',(1.,0.,0.));
#409=DIRECTION('',(1.,0.,0.));
#410=DIRECTION('',(0.,0.,-1.));
#411=DIRECTION('',(1.,0.,0.));
#412=DIRECTION('',(0.,-1.,-2.4093381610789E-16));
#413=DIRECTION('',(-1.,0.,0.));
#414=DIRECTION('',(0.,0.,1.));
#415=DIRECTION('',(-1.,0.,0.));
#416=DIRECTION('',(0.,0.,1.));
#417=DIRECTION('',(-1.,0.,0.));
#418=DIRECTION('',(0.,-0.999999999999999,0.));
#419=DIRECTION('',(-1.,0.,0.));
#420=DIRECTION('',(0.,0.,0.999999999999999));
#421=DIRECTION('',(1.,0.,0.));
#422=DIRECTION('',(0.,0.,-1.));
#423=DIRECTION('',(0.,-1.,0.));
#424=DIRECTION('',(1.,0.,0.));
#425=DIRECTION('',(0.,1.,0.));
#426=DIRECTION('',(0.,0.,1.));
#427=DIRECTION('',(0.,-1.,0.));
#428=DIRECTION('',(0.,0.,-1.));
#429=CARTESIAN_POINT('',(0.,0.,0.));
#430=CARTESIAN_POINT('',(3.4,2.5,2.8));
#431=CARTESIAN_POINT('',(3.4,1.4,2.8));
#432=CARTESIAN_POINT('',(1.7,2.5,2.8));
#433=CARTESIAN_POINT('',(1.7,2.5,3.9));
#434=CARTESIAN_POINT('',(3.4,2.5,2.8));
#435=CARTESIAN_POINT('',(1.7,12.,1.));
#436=CARTESIAN_POINT('',(1.7,12.,1.));
#437=CARTESIAN_POINT('',(1.7,12.,4.6));
#438=CARTESIAN_POINT('',(1.7,12.,4.6));
#439=CARTESIAN_POINT('',(0.,12.,4.6));
#440=CARTESIAN_POINT('',(0.,12.,8.5));
#441=CARTESIAN_POINT('',(0.,12.,8.5));
#442=CARTESIAN_POINT('',(3.4,12.,8.5));
#443=CARTESIAN_POINT('',(3.4,12.,8.5));
#444=CARTESIAN_POINT('',(3.4,12.,8.5));
#445=CARTESIAN_POINT('',(3.4,12.,0.));
#446=CARTESIAN_POINT('',(3.4,12.,0.));
#447=CARTESIAN_POINT('',(0.,12.,0.));
#448=CARTESIAN_POINT('',(0.,12.,8.5));
#449=CARTESIAN_POINT('',(0.,12.,1.));
#450=CARTESIAN_POINT('',(1.7,12.,1.));
#451=CARTESIAN_POINT('',(3.4,12.,8.5));
#452=CARTESIAN_POINT('',(0.,0.,8.5));
#453=CARTESIAN_POINT('',(0.,0.,8.5));
#454=CARTESIAN_POINT('',(3.4,0.,8.5));
#455=CARTESIAN_POINT('',(3.4,0.,8.5));
#456=CARTESIAN_POINT('',(3.4,0.,8.5));
#457=CARTESIAN_POINT('',(3.4,0.,8.5));
#458=CARTESIAN_POINT('',(0.,12.,0.));
#459=CARTESIAN_POINT('',(0.,0.,0.));
#460=CARTESIAN_POINT('',(3.4,12.,0.));
#461=CARTESIAN_POINT('',(3.4,0.,0.));
#462=CARTESIAN_POINT('',(3.4,0.,0.));
#463=CARTESIAN_POINT('',(3.4,12.,0.));
#464=CARTESIAN_POINT('',(1.7,0.,4.25));
#465=CARTESIAN_POINT('',(2.8,0.,4.25));
#466=CARTESIAN_POINT('',(0.,0.,0.));
#467=CARTESIAN_POINT('',(3.4,0.,0.));
#468=CARTESIAN_POINT('',(3.4,0.,0.));
#469=CARTESIAN_POINT('',(3.4,10.,2.8));
#470=CARTESIAN_POINT('',(3.4,8.9,2.8));
#471=CARTESIAN_POINT('',(3.4,0.,0.));
#472=CARTESIAN_POINT('',(0.,6.5,6.));
#473=CARTESIAN_POINT('',(0.,6.,6.));
#474=CARTESIAN_POINT('',(0.,2.5,2.8));
#475=CARTESIAN_POINT('',(0.,0.7,2.8));
#476=CARTESIAN_POINT('',(0.,12.,4.6));
#477=CARTESIAN_POINT('',(0.,10.,4.6));
#478=CARTESIAN_POINT('',(0.,10.,2.80000017153782));
#479=CARTESIAN_POINT('',(0.,10.,1.00000017153782));
#480=CARTESIAN_POINT('',(0.,10.,1.));
#481=CARTESIAN_POINT('',(0.,0.,0.));
#482=CARTESIAN_POINT('',(1.7,10.,2.8));
#483=CARTESIAN_POINT('',(1.7,10.,1.7));
#484=CARTESIAN_POINT('',(3.4,10.,2.8));
#485=CARTESIAN_POINT('',(1.7,12.,4.6));
#486=CARTESIAN_POINT('',(1.7,10.,4.6));
#487=CARTESIAN_POINT('',(1.7,10.,4.6));
#488=CARTESIAN_POINT('',(1.7,12.,4.6));
#489=CARTESIAN_POINT('',(1.7,10.,2.80000017153782));
#490=CARTESIAN_POINT('',(1.7,10.,1.00000017153782));
#491=CARTESIAN_POINT('',(1.7,10.,1.00000017153782));
#492=CARTESIAN_POINT('',(1.7,10.,2.80000017153782));
#493=CARTESIAN_POINT('',(1.7,10.,1.));
#494=CARTESIAN_POINT('',(1.7,10.,1.));
#495=CARTESIAN_POINT('',(1.7,10.,2.80000017153782));
#496=CARTESIAN_POINT('',(1.7,2.5,2.8));
#497=CARTESIAN_POINT('',(1.7,0.7,2.8));
#498=CARTESIAN_POINT('',(1.7,2.5,2.8));
#499=CARTESIAN_POINT('',(1.7,2.5,2.8));
#500=CARTESIAN_POINT('',(0.05,6.5,6.));
#501=CARTESIAN_POINT('',(0.05,6.,6.));
#502=CARTESIAN_POINT('',(0.05,6.5,6.));
#503=CARTESIAN_POINT('',(0.05,6.5,6.));
#504=CARTESIAN_POINT('',(1.7,-20.,4.25));
#505=CARTESIAN_POINT('',(2.8,-20.,4.25));
#506=CARTESIAN_POINT('',(1.7,-20.,4.25));
#507=CARTESIAN_POINT('',(1.7,-20.,4.25));
#508=MECHANICAL_DESIGN_GEOMETRIC_PRESENTATION_REPRESENTATION('',(#24),#509);
#509=(
GEOMETRIC_REPRESENTATION_CONTEXT(3)
GLOBAL_UNCERTAINTY_ASSIGNED_CONTEXT((#510))
GLOBAL_UNIT_ASSIGNED_CONTEXT((#516,#512,#511))
REPRESENTATION_CONTEXT('EX-FT12','TOP_LEVEL_ASSEMBLY_PART')
);
#510=UNCERTAINTY_MEASURE_WITH_UNIT(LENGTH_MEASURE(2.E-5),#516,
'DISTANCE_ACCURACY_VALUE','Maximum Tolerance applied to model');
#511=(
NAMED_UNIT(*)
SI_UNIT($,.STERADIAN.)
SOLID_ANGLE_UNIT()
);
#512=(
CONVERSION_BASED_UNIT('DEGREE',#514)
NAMED_UNIT(#513)
PLANE_ANGLE_UNIT()
);
#513=DIMENSIONAL_EXPONENTS(0.,0.,0.,0.,0.,0.,0.);
#514=PLANE_ANGLE_MEASURE_WITH_UNIT(PLANE_ANGLE_MEASURE(0.0174532925),#515);
#515=(
NAMED_UNIT(*)
PLANE_ANGLE_UNIT()
SI_UNIT($,.RADIAN.)
);
#516=(
LENGTH_UNIT()
NAMED_UNIT(*)
SI_UNIT(.MILLI.,.METRE.)
);
ENDSEC;
END-ISO-10303-21;
